«    Январь 2019    »
ПнВтСрЧтПтСбВс
 123456
78910111213
14151617181920
21222324252627
28293031 

Муцураев Тимур - Иерусалим аккорды

Добавил: 1Dimka  |  Просмотров: 9 738  |  Комментарии (2)
  • Не нравится
  • +64
  • Нравится

 

Муцураев Тимур - Иерусалим

Композиция: 

Intro:
e|----------------------------------------------|

B|----------------------------------------------|

G|--5---4--5--5/7--5---4p5h4--------------------|
D|----------------------------7--6--------------|
A|--0-------------------------------------------|
E|-------------------------------0--------------|

e|----------------------------------------------|
B|----------------------------------------------|

G|-----4--5---5/7--5--4-5-4---------------------|
D|----------------------------------------------|
A|----------------------------------------------|
E|----------------------------------------------|
e|----------------------------------------------|
B|----------------------------------------------|

G|--5---4--5---5/7--5--4p5h4--------------------|
D|----------------------------7--6--------------|
A|--0-------------------------------------------|
E|-------------------------------0--------------|

e|----------------------------------------------|
B|----------------------------------------------|

G|---4---5--5/7--7/9---7----5----4--------------|

D|----------------------------------------------|

A|----------------------------------------------|

E|----------------------------------------------|
ам

e|---------------------0------------------------|
B|--1--------0p1----0--1----3---1---0-------0---|
G|--------2-------------------2---2---2---------|
D|------2-------------------------------2-------|
A|--0-------------------------------------------|
E|----------------------------------------------|
e|----------------------------------------------|
B|--0------0--------0--1--3--1----0-1-0---------|
G|-------1---1----------------------------------|
D|-----2----------------------------------------|
A|--2-------------------------------------------|
E|----------------------------------------------|

e|---------------------0------------------------|
B|--1--------0p1----0--1----3---1---0-------0---|
G|--------2-------------------2---2---2---------|
D|------2-------------------------------2-------|
A|--0-------------------------------------------|
E|----------------------------------------------|

e|----------------------------------------------|
B|--0------0--------0--1--3--1----0-1-0---------|
G|-------1---1----------------------------------|
D|-----2----------------------------------------|
A|--2-------------------------------------------|
E|----------------------------------------------|

e|--------0-------------------------------------|
B|---1------0---0p1-----------------------------|

G|---2--------2----2-------------2---1----------| 3 раза

D|---2--2-----------2------------0---2----------|

A|---0-0-------------0-----------0---2----------|

E|-------------------------------1---0----------|

e|--------0-------------------------------------|
B|---1------0---0p1------------------1----------|

G|---2--------2----2-----------------2----------|

D|---2--2-----------2----------------2----------|

A|---0-0-------------0---------------0----------|

E|----------------------------------------------|


Am
E
1|------0---------0----------0----------0-------|
2|------1---------1----------0----------0-------|

3|--------2-2-------2-2--------1-1--------1-1---|
4|----2---2-----2---2----------2----------2-----|
5|--0---------0------------2----------2---------|
6|-----------------------0----------0-----------|

О
Аллах! Мир окутан страшной мглой.
E
Am
1|------0---------0----------0----------0-------|
2|------0---------0----------1----------1-------|

3|--------1-1-------1-1--------2-2--------2-2---|
4|--------2---------2------2---2------2---2-----|
5|----2---------2--------0----------0-----------|
6|--0---------0---------------------------------|
И
война вновь сменяется войной.
Am
E
e|------0---------0----------0----------0-------|
B|------1---------1----------0----------0-------|

G|--------2-2-------2-2--------1-1--------1-1---|
D|----2---2-----2---2----------2----------2-----|
A|--0---------0------------2----------2---------|
E|-----------------------0----------0-----------|
Страшный
век, век неверия и зла.
Dm
E
1|------1---------1----------0----------0-------|
2|------3---------3----------0----------0-------|

3|----2---2-2---2---2-2--------1-1--------1-1---|
4|--0---------0----------------2----------2-----|
5|-------------------------2----------2---------|
6|-----------------------0----------0-----------|
О
Аллах, лишь джихад, и жизнь ясна!
C
G
1|------0---------0----------3----------3-------|
2|------1---------1----------3----------3-------|

3|--------0-0-------0-0--------0-0--------0-0---|
4|----2---2-----2---2----------0----------0-----|
5|--3---------3------------2----------2---------|
6|-----------------------3----------3-----------|
На
земле есть святыня - божий храм,
E
Am
e|------0---------0----------0----------0-------|
B|------0---------0----------1----------1-------|

G|--------1-1-------1-1--------2-2--------2-2---|
D|--------2---------2------2---2------2---2-----|
A|----2---------2--------0----------0-----------|
E|--0---------0---------------------------------|
О
Аллах, дай его увидеть нам.
F
Dm
1|------1---------1----------1----------1-------|
2|------1---------1----------3----------3-------|

3|--------2-2-------2-2----2---2-2----2---2-2---|
4|--------3---------3----0----------0-----------|
5|----3---------3-------------------------------|
6|--1---------1---------------------------------|
Ведь
сейчас там собрались силы зла,
E
e|------0---------0----------0----------0-------|
B|------0---------0----------0----------0-------|

G|--------1-1-------1-1--------1-1--------1-1---|
D|--------2---------2----------2----------2-----|
A|----2---------2----------2----------2---------|
E|--0---------0----------0----------0-----------|
Об
одном молим мы теперь Тебя: (повторить)

Dm E
Иерусалим,
Иерусалим!
Dm E
Иерусалим, Иерусалим!

Am E
О Аллах, мы живем тем
самым днем.
E Am
Днем,
когда к одному к Тебе придем.
F
Dm
Жизни путь пусть закончится для нас
E
Лишь тогда, когда будет взят Аль-Акс!
C Dm
Этот храм будет взят
и зло уйдет,
G C
E
Солнца диск на закате вдруг взойдет.
Am Dm
И огонь вдруг низвергнут
небеса,
E
Божий храм озарит пророк Иса!
(повторить)
C E Am
Мы тебя освободим,
G C
Богу души отдадим,
E Am
Взор к Аллаху обратим,
Dm E
Будет наш Иерусалим!
G C
Горы пепла и огня,
G C
В храм войдут Твои войска,
E Am
Ты молитвам их внемли,
Dm E
Души в вечность забери!

Dm E
Иерусалим,
Иерусалим!
Dm E
Иерусалим,
Иерусалим!

Am E
О Аллах, дай нам
истину понять,
E Am
В трудный
час дай нам силы устоять.
F
Dm
В мире сём - искуситель сатана,
E
Лишь
джихад, лишь джихад, и жизнь ясна!
C Dm
Впереди ждут жестокие
бои,
G C E
Впереди ждут
даджаловы полки.
Am Dm
И в огне
будет долго мир пылать,
E
О Аллах, будут все к Тебе
взывать! (повторить)
Мы тебя освободим,
Богу души отдадим,
Взор к Аллаху обратим,
Будет
наш Иерусалим!
Горы пепла и огня,
В храм войдут Твои войска,
Ты
молитвам их внемли,
Души в вечность забери!
Иерусалим, Иерусалим!
Иерусалим, Иерусалим!
О Аллах, Ты возвысил этот храм,
Божий дар здесь пророкам многим
дан.
Здесь исток обетованной земли,
Но сейчас здесь приют нашли враги!
Недалёк день, когда к тебе придем,
Черный флаг мы над храмом
вознесем!
В этот день ты к Всевышнему взывай,
Пусть Аль-Акс станет нам
дорогой в рай! (повторить)
Мы тебя освободим,
Богу души отдадим,
Взор к Аллаху обратим,
Будет
наш Иерусалим!
Горы пепла и огня,
В храм войдут Твои войска,
Ты
молитвам их внемли,
Души в вечность забери!
На земле есть святыня - божий храм,
О Аллах, дай его увидеть нам.
Ведь
сейчас там собрались силы зла,
Об одном молим мы сейчас Тебя!
Этот храм будет взят и зло уйдёт,
Солнца диск на закате вдруг
взойдёт.
В этот день ты к Всевышнему взывай,
Пусть Аль-Акс станет нам
дорогой в рай!
Мы тебя освободим,
Богу души отдадим,
Взор к Аллаху обратим,
Будет
наш Иерусалим!
Горы пепла и огня,
В храм войдут Твои войска,
Ты
молитвам их внемли,
Души в вечность забери...

Outro:
e|---------------------0------------------------|
B|--1--------0p1----0--1----3---1---0-------0---|
G|--------2-------------------2---2---2---------|
D|------2-------------------------------2-------|
A|--0-------------------------------------------|
E|----------------------------------------------|
e|----------------------------------------------|
B|--0------0--------0--1--3--1----0-1-0---------|
G|-------1---1----------------------------------|
D|-----2----------------------------------------|
A|--2-------------------------------------------|
E|----------------------------------------------|

e|---------------------0------------------------|
B|--1--------0p1----0--1----3---1---0-------0---|
G|--------2-------------------2---2---2---------|
D|------2-------------------------------2-------|
A|--0-------------------------------------------|
E|----------------------------------------------|

e|----------------------------------------------|
B|--0------0--------0--1--3--1----0-1-0---------|
G|-------1---1----------------------------------|
D|-----2----------------------------------------|
A|--2-------------------------------------------|
E|----------------------------------------------|

quot;courierчас дай нам силы устоять.

Ключевые слова: Муцураев Тимур Иерусалим храм всевышний аллах рай молитва
16-09-2011, 21:26  |  Категория: Армейские / Муцураев Тимур | Нашли ошибку?
28 октября 2012 14:02 Пользователь offline
Написал: Notable men
Он что тебе, с того света писать будет?
Он был солдатом.Он погиб в бою.
  • Не нравится
  • 0
  • Нравится
28 октября 2012 12:17
Написал: хамзат
салам алейкум тимур!!! ты просто суппер!!!

напиши мне в личку на майл тимур
  • Не нравится
  • 0
  • Нравится
Добавить комментарий к песне под гитару
    • bowtiesmilelaughingblushsmileyrelaxedsmirk
      heart_eyeskissing_heartkissing_closed_eyesflushedrelievedsatisfiedgrin
      winkstuck_out_tongue_winking_eyestuck_out_tongue_closed_eyesgrinningkissingstuck_out_tonguesleeping
      worriedfrowninganguishedopen_mouthgrimacingconfusedhushed
      expressionlessunamusedsweat_smilesweatdisappointed_relievedwearypensive
      disappointedconfoundedfearfulcold_sweatperseverecrysob
      joyastonishedscreamtired_faceangryragetriumph
      sleepyyummasksunglassesdizzy_faceimpsmiling_imp
      neutral_faceno_mouthinnocent