Песни под гитару » Гитара » Король и шут » Леоненко Анна - Воспоминания о былой любви

Леоненко Анна - Воспоминания о былой любви аккорды
Король и шут под гитару

  • Прослушиваний: 5 151
  • Скачивается: mp3, мп3
  • Категория:Гитара / Король и шут
  • Дата: 7-03-2020
  • Тип: Аккорды, акустика, гитара
Слушать песню
Леоненко Анна - Воспоминания о былой любви
Скачать песню
Скачать песню под гитару Леоненко Анна - Воспоминания о былой любви с аккордами Слушайте онлайн Король и шут песни под гитару акустика в хорошем качестве mp3. Как играть на гитаре Леоненко Анна - Воспоминания о былой любви, бой, перебор, табы.
Понравилась песня Леоненко Анна - Воспоминания о былой любви?
Да (0%)
Нет (0%)
Видео кавер Леоненко Анна - Воспоминания о былой любви разбор

Аккорды песни Леоненко Анна - Воспоминания о былой любви под гитару текст, слова, mp3

Король и шут - Воспоминания о былой любви

Анна Леоненко  - Воспоминания о былой любви


[/spoiler]



Em Am D
 E--------------------0---------0-------0----2--3--2--0-----
H----------------------0-------1--1--3------3-----------3--
G------------------------0-----2------------2--------------
D--------1--2--4--5--------0---2---------------------------
A--2--4----------------------------------------------------
 E----------------------------------------------------------

G C Am H7
E-------------0---0------------0---0----------2-----------
H-------------1-----1----------1-----1--------0----------
G--------0----0--------0-------2-------2------2-----------
D-----0-------2-----------2----2---------2----1------------
A-------------3----------------0--------------2-----------
 E--3----------0-------------------------------0----------


Em Am D G
Дремлет за горой мрачный замок мой,
C Am H
Душу мучает порой царящий в нём покой.
Я твоих фантазий страждущий герой,
О любви моей живой все образы со мной.

Припев:
Em Am D H Em
Я часто вижу страх в смотрящих на меня глазах
AmD G C Am
Им суждено уснуть в моих стенах, застыть в моих мирах.
Em Am D H Em
Вновь сердце от любви горит моя душа болит.
Am D G C Am H
И восковых фигур прекрасен вид, покой везде царит.

Я их приводил в свой прекрасный дом,
Их вином поил и развлекались мы потом.
Иногда у них лёгкий был испуг
От прикосновений к нежной шеи крепких рук.

Припев.

Вот несёт одна мне свои цветы,
вот стоит другая погруженная в мечты.
я пытался их до смерти рассмешить,
но пришлось как в старой сказке просто задушить.

Припев.


Лучшие песни под гитару
Комментарии к песне (0)
Комментировать песню

Ты просто ДОЛЖЕН ✔ оставить комментарий 🎸