Песни под гитару » Гитара » Лирические » Колян Maroz - Кресты

Колян Maroz - Кресты аккорды
Лирические под гитару

  • Прослушиваний: 3 477
  • Скачивается: mp3, мп3
  • Категория:Гитара / Лирические
  • Дата: 17-03-2010
  • Тип: Аккорды, акустика, гитара
Слушать песню
Колян Maroz - Кресты
Скачать песню
Скачать песню под гитару Колян Maroz - Кресты с аккордами Слушайте онлайн Лирические песни под гитару акустика в хорошем качестве mp3. Как играть на гитаре Колян Maroz - Кресты, бой, перебор, табы.
Понравилась песня Колян Maroz - Кресты?
Да (0%)
Нет (0%)
Видео кавер Колян Maroz - Кресты разбор
Упс... ЧебурнЭт 🤦‍♂️ Видео разбор как играть Колян Maroz - Кресты под гитару... изчезло ¯\_(ツ)_/¯

Аккорды песни Колян Maroz - Кресты под гитару текст, слова, mp3

 

Колян Maroz - Кресты

-----------------------------------------------------------
-----------------------------------------------------------
--------0------------0-----------0------------0-----------
------2---2---4---4---4-------2---2----2--4---4--------
-----------------5-------5----3--------0----------5------
-0---------------------------------------------------------

-----------------------------------------------------------
-----------------------------------------------------------
--------0------------0----------0-------------0-----------
------2---2---4---4---4----------2------2-4---4---------
-----------------5-------5----3-----3-0-----------5------
-0---------------------------------------------------------

-----------------------------------------------------------
--------0--------------------------------------------------
------0---0-2-------0-------------0------------0---------
---------------4---4---4-------------2-----2-4---4-------
--------------------------5---3---------3-0---------5-----
-0---------------------------------------------------------

-----------------------------------------------------------
------------------------------------------1----------------
--------0------------0-----------0-------2---------------
------2---2---4---4---4-----------2-----2---------------
-----------------5-------5----3-------3--0--------5------
-0---------------------------------------------------------

1.
Е D C Am
За спиной - крик совы, детский смех в зимней чаще
E D Am
И солнце взахват.
E D C Am
Впереди - хвост молвы, столько грязи притащит -
E D Am
Что пулю бы в лоб...

2. Уходил, исчезал - непонятная сила
Вернула назад.
И грозу проклинал, рядом молния била -
Да все невпопад.


Припев:
G D C E
В небе вороны, в небе голуби -
G D Am
Рукой не развести.
G G D E
На Руси вся жизнь изломами,
G D Am
Разбиты кресты...

3.
Почему, для чего я рожден этим небом
И этой землей?
Чтоб считать день за год, верить в яркую небыль
И быть ей слугой.

Припев:
В небе вороны, в небе голуби -
Рукой не развести.
На Руси вся жизнь изломами,
Разбиты кресты
ночным ураганом.
(Мастер - Кресты)


Лучшие песни под гитару
Комментарии к песне (0)
Комментировать песню

Ты просто ДОЛЖЕН ✔ оставить комментарий 🎸