Песни под гитару » Гитара » Сержант Агапов » Сержант Агапов - Демобилизация

Сержант Агапов - Демобилизация аккорды
Сержант Агапов / Армейские под гитару

Слушать песню
Сержант Агапов - Демобилизация
Скачать песню
Скачать песню под гитару Сержант Агапов - Демобилизация с аккордами Слушайте онлайн Сержант Агапов / Армейские песни под гитару акустика в хорошем качестве mp3. Как играть на гитаре Сержант Агапов - Демобилизация, бой, перебор, табы.
Понравилась песня Сержант Агапов - Демобилизация?
Да (0%)
Нет (0%)
Видео кавер Сержант Агапов - Демобилизация разбор
Упс... ЧебурнЭт 🤦‍♂️ Видео разбор как играть Сержант Агапов - Демобилизация под гитару... изчезло ¯\_(ツ)_/¯

Аккорды песни Сержант Агапов - Демобилизация под гитару текст, слова, mp3

Сержант Агапов - Демобилизация 
Am
Скорый поезд к дому мчится
Полечу домой, как птица.
A7 Dm
Полечу, как птица, я.
Жизнь начнется без авралов,
Am
Сундуков и генералов:
E Am A7
Демобилизация.

Я приеду к тебе вскоре,
Будет спать спокойно город
В клёнах и акациях.
Я прижмусь к тебе щекою,
Ты смахнёшь слезу рукою.
Демобилизация.

Мы пройдемся под луною
Рядом с будущей женою
Каблучками цокая.
Не боясь за то в награду
Получить пяток наряду.
Демобилизация.

Hm
И поднимем мы бокалы
В самых лучших ресторанах
H7 Em
Не боясь нотации.
Не боясь за эту шутку
Hm
Получить пятнадцать суток.
F(диез) Hm H7
Демобилизация. А-А-А.

Cm(Диез)
Скорый поезд к дому мчится,
Прилетел домой, как птица.
C7(Диез) F(Диез)
Прилетел, как птица, я.
Снял погоны и петлицы
Cm(Диез)
И уже успел напится.
G(Диез) Cm(Диез) С7(Диез)
Демобилизация. А-А-А.

Соло после 4 куплета:

Вариант 1.
G|-5-4-2----5-4-2-----5-5-5-5-5-4-2-2--------7-6---7-
D|----------2----------2--------------------------2-2-2-----2----

G|-7-7-7-7-7-7-5-4-2-2-2-4-5-5-4-2-4-4-4-2-1-4-2----| } играть 2 раза
D|---------------------------------------------------------------3-2|

Вариант 2.
E|---------0--------0--------------------0-0-0------0----
H|-1-0------1-0-----1-1-1-1-1-0-------------3-2-------

G|------2--------2------------------2-2----------------3-
E|--------------------------------------------------------1-0|

H|-3-3-3-3-3-3-1-0--------0-1-1-0---0-0-0-----0-------| } играть 2 раза
G|---------------------2-2-2----------2--------2-1---2-----|

--------------------------------------------------------------------------------

1|---------------------|--------------------|-0-0-0-------0----|
2|-1-0------1-0------|-1-1-1-1-1-0-----|---------3-2-----3-|
3|------2---------2---|----------------2---|--------------------|
4|--------2---------2-|------------------2-|--------------------|

1|---------------------|---------------------|------------------|-1--0-|
2|-3-3-3-3-3-3-1-0-|---------0-1-1-0---|-0-0-0------0---|-------|
3|---------------------|-2-2-2-----------2-|---------2-1---2-|-------|
4|---------------------|---------------------|------------------|-------|

1|---------------------|--------------------|------------------|
2|-3-3-3-3-3-3-1-0-|--------0-1-1-0---|-0-0-0------0---|
3|---------------------|-2-2-2----------2-|---------2-1---2-|
4|---------------------|--------------------|-------------------|


Лучшие песни под гитару
Комментарии к песне (1)
Комментировать песню

Ты просто ДОЛЖЕН ✔ оставить комментарий 🎸

Стас)
Стас) 17 августа 2011 20:52
классно winked